  0
SECTION
  2
HEADER
  9
$ACADVER
  1
AC1015
  9
$ACADMAINTVER
 70
     6
  9
$DWGCODEPAGE
  3
ANSI_1254
  9
$INSBASE
 10
0.0
 20
0.0
 30
0.0
  9
$EXTMIN
 10
0.0
 20
0.0
 30
0.0
  9
$EXTMAX
 10
279.4
 20
215.9
 30
0.0
  9
$LIMMIN
 10
0.0
 20
0.0
  9
$LIMMAX
 10
279.4
 20
215.9
  9
$ORTHOMODE
 70
     0
  9
$REGENMODE
 70
     1
  9
$FILLMODE
 70
     1
  9
$QTEXTMODE
 70
     0
  9
$MIRRTEXT
 70
     1
  9
$LTSCALE
 40
1.0
  9
$ATTMODE
 70
     1
  9
$TEXTSIZE
 40
3.5
  9
$TRACEWID
 40
1.0
  9
$TEXTSTYLE
  7
Standard
  9
$CLAYER
  8
0
  9
$CELTYPE
  6
ByLayer
  9
$CECOLOR
 62
   256
  9
$CELTSCALE
 40
1.0
  9
$DISPSILH
 70
     0
  9
$DIMSCALE
 40
1.0
  9
$DIMASZ
 40
3.5
  9
$DIMEXO
 40
1.0
  9
$DIMDLI
 40
3.75
  9
$DIMRND
 40
0.0
  9
$DIMDLE
 40
0.0
  9
$DIMEXE
 40
1.0
  9
$DIMTP
 40
0.0
  9
$DIMTM
 40
0.0
  9
$DIMTXT
 40
3.5
  9
$DIMCEN
 40
2.5
  9
$DIMTSZ
 40
0.0
  9
$DIMTOL
 70
     0
  9
$DIMLIM
 70
     0
  9
$DIMTIH
 70
     1
  9
$DIMTOH
 70
     1
  9
$DIMSE1
 70
     0
  9
$DIMSE2
 70
     0
  9
$DIMTAD
 70
     1
  9
$DIMZIN
 70
     0
  9
$DIMBLK
  1

  9
$DIMASO
 70
     1
  9
$DIMSHO
 70
     1
  9
$DIMPOST
  1

  9
$DIMAPOST
  1

  9
$DIMALT
 70
     0
  9
$DIMALTD
 70
     3
  9
$DIMALTF
 40
0.0393700787
  9
$DIMLFAC
 40
1.0
  9
$DIMTOFL
 70
     1
  9
$DIMTVP
 40
0.0
  9
$DIMTIX
 70
     0
  9
$DIMSOXD
 70
     0
  9
$DIMSAH
 70
     0
  9
$DIMBLK1
  1

  9
$DIMBLK2
  1

  9
$DIMSTYLE
  2
ISO-25
  9
$DIMCLRD
 70
     0
  9
$DIMCLRE
 70
     0
  9
$DIMCLRT
 70
     0
  9
$DIMTFAC
 40
1.0
  9
$DIMGAP
 40
1.524
  9
$DIMJUST
 70
     0
  9
$DIMSD1
 70
     0
  9
$DIMSD2
 70
     0
  9
$DIMTOLJ
 70
     0
  9
$DIMTZIN
 70
     0
  9
$DIMALTZ
 70
     0
  9
$DIMALTTZ
 70
     0
  9
$DIMUPT
 70
     0
  9
$DIMDEC
 70
     2
  9
$DIMTDEC
 70
     2
  9
$DIMALTU
 70
     2
  9
$DIMALTTD
 70
     3
  9
$DIMTXSTY
  7
Standard
  9
$DIMAUNIT
 70
     0
  9
$DIMADEC
 70
     2
  9
$DIMALTRND
 40
0.0
  9
$DIMAZIN
 70
     0
  9
$DIMDSEP
 70
    44
  9
$DIMATFIT
 70
     3
  9
$DIMFRAC
 70
     0
  9
$DIMLDRBLK
  1

  9
$DIMLUNIT
 70
     2
  9
$DIMLWD
 70
    -2
  9
$DIMLWE
 70
    -2
  9
$DIMTMOVE
 70
     0
  9
$LUNITS
 70
     2
  9
$LUPREC
 70
     2
  9
$SKETCHINC
 40
1.0
  9
$FILLETRAD
 40
10.0
  9
$AUNITS
 70
     0
  9
$AUPREC
 70
     2
  9
$MENU
  1
.
  9
$ELEVATION
 40
0.0
  9
$PELEVATION
 40
0.0
  9
$THICKNESS
 40
0.0
  9
$LIMCHECK
 70
     0
  9
$CHAMFERA
 40
0.0
  9
$CHAMFERB
 40
0.0
  9
$CHAMFERC
 40
0.0
  9
$CHAMFERD
 40
0.0
  9
$SKPOLY
 70
     0
  9
$TDCREATE
 40
2458985.70576265
  9
$TDUCREATE
 40
2458985.58076265
  9
$TDUPDATE
 40
2458985.705763067
  9
$TDUUPDATE
 40
2458985.580763067
  9
$TDINDWG
 40
0.0000000116
  9
$TDUSRTIMER
 40
0.0000000116
  9
$USRTIMER
 70
     1
  9
$ANGBASE
 50
0.0
  9
$ANGDIR
 70
     0
  9
$PDMODE
 70
     0
  9
$PDSIZE
 40
-1.0
  9
$PLINEWID
 40
0.0
  9
$SPLFRAME
 70
     0
  9
$SPLINETYPE
 70
     6
  9
$SPLINESEGS
 70
     8
  9
$HANDSEED
  5
F1
  9
$SURFTAB1
 70
     6
  9
$SURFTAB2
 70
     6
  9
$SURFTYPE
 70
     6
  9
$SURFU
 70
     6
  9
$SURFV
 70
     6
  9
$UCSBASE
  2

  9
$UCSNAME
  2

  9
$UCSORG
 10
0.0
 20
0.0
 30
0.0
  9
$UCSXDIR
 10
1.0
 20
0.0
 30
0.0
  9
$UCSYDIR
 10
0.0
 20
1.0
 30
0.0
  9
$UCSORTHOREF
  2

  9
$UCSORTHOVIEW
 70
     0
  9
$UCSORGTOP
 10
0.0
 20
0.0
 30
0.0
  9
$UCSORGBOTTOM
 10
0.0
 20
0.0
 30
0.0
  9
$UCSORGLEFT
 10
0.0
 20
0.0
 30
0.0
  9
$UCSORGRIGHT
 10
0.0
 20
0.0
 30
0.0
  9
$UCSORGFRONT
 10
0.0
 20
0.0
 30
0.0
  9
$UCSORGBACK
 10
0.0
 20
0.0
 30
0.0
  9
$PUCSBASE
  2

  9
$PUCSNAME
  2

  9
$PUCSORG
 10
0.0
 20
0.0
 30
0.0
  9
$PUCSXDIR
 10
1.0
 20
0.0
 30
0.0
  9
$PUCSYDIR
 10
0.0
 20
1.0
 30
0.0
  9
$PUCSORTHOREF
  2

  9
$PUCSORTHOVIEW
 70
     0
  9
$PUCSORGTOP
 10
0.0
 20
0.0
 30
0.0
  9
$PUCSORGBOTTOM
 10
0.0
 20
0.0
 30
0.0
  9
$PUCSORGLEFT
 10
0.0
 20
0.0
 30
0.0
  9
$PUCSORGRIGHT
 10
0.0
 20
0.0
 30
0.0
  9
$PUCSORGFRONT
 10
0.0
 20
0.0
 30
0.0
  9
$PUCSORGBACK
 10
0.0
 20
0.0
 30
0.0
  9
$USERI1
 70
     0
  9
$USERI2
 70
     0
  9
$USERI3
 70
     0
  9
$USERI4
 70
     0
  9
$USERI5
 70
     0
  9
$USERR1
 40
0.0
  9
$USERR2
 40
0.0
  9
$USERR3
 40
0.0
  9
$USERR4
 40
0.0
  9
$USERR5
 40
0.0
  9
$WORLDVIEW
 70
     1
  9
$SHADEDGE
 70
     3
  9
$SHADEDIF
 70
    70
  9
$TILEMODE
 70
     1
  9
$MAXACTVP
 70
    64
  9
$PINSBASE
 10
0.0
 20
0.0
 30
0.0
  9
$PLIMCHECK
 70
     0
  9
$PEXTMIN
 10
1.0000000000E+20
 20
1.0000000000E+20
 30
1.0000000000E+20
  9
$PEXTMAX
 10
-1.0000000000E+20
 20
-1.0000000000E+20
 30
-1.0000000000E+20
  9
$PLIMMIN
 10
0.0
 20
0.0
  9
$PLIMMAX
 10
420.0
 20
297.0
  9
$UNITMODE
 70
     0
  9
$VISRETAIN
 70
     1
  9
$PLINEGEN
 70
     0
  9
$PSLTSCALE
 70
     1
  9
$TREEDEPTH
 70
  3020
  9
$CMLSTYLE
  2
Standard
  9
$CMLJUST
 70
     0
  9
$CMLSCALE
 40
20.0
  9
$PROXYGRAPHICS
 70
     1
  9
$MEASUREMENT
 70
     1
  9
$CELWEIGHT
370
    -1
  9
$ENDCAPS
280
     0
  9
$JOINSTYLE
280
     0
  9
$LWDISPLAY
290
     1
  9
$INSUNITS
 70
     4
  9
$HYPERLINKBASE
  1

  9
$STYLESHEET
  1

  9
$XEDIT
290
     1
  9
$CEPSNTYPE
380
     0
  9
$PSTYLEMODE
290
     1
  9
$FINGERPRINTGUID
  2
{a2fb4b8d-5d43-4f06-a896-fb9614438b4a}
  9
$VERSIONGUID
  2
{FAEB1C32-E019-11D5-929B-00C0DF256EC4}
  9
$EXTNAMES
290
     1
  9
$PSVPSCALE
 40
0.0
  9
$OLESTARTUP
290
     0
  0
ENDSEC
  0
SECTION
  2
CLASSES
  0
CLASS
  1
ACDBDICTIONARYWDFLT
  2
AcDbDictionaryWithDefault
  3
ObjectDBX Classes
 90
        0
280
     0
281
     0
  0
CLASS
  1
VISUALSTYLE
  2
AcDbVisualStyle
  3
ObjectDBX Classes
 90
     4095
280
     0
281
     0
  0
CLASS
  1
MATERIAL
  2
AcDbMaterial
  3
ObjectDBX Classes
 90
     1153
280
     0
281
     0
  0
CLASS
  1
SCALE
  2
AcDbScale
  3
ObjectDBX Classes
 90
     1153
280
     0
281
     0
  0
CLASS
  1
TABLESTYLE
  2
AcDbTableStyle
  3
ObjectDBX Classes
 90
     4095
280
     0
281
     0
  0
CLASS
  1
MLEADERSTYLE
  2
AcDbMLeaderStyle
  3
ACDB_MLEADERSTYLE_CLASS
 90
     4095
280
     0
281
     0
  0
CLASS
  1
SUN
  2
AcDbSun
  3
SCENEOE
 90
     1153
280
     0
281
     0
  0
CLASS
  1
ACDBPLACEHOLDER
  2
AcDbPlaceHolder
  3
ObjectDBX Classes
 90
        0
280
     0
281
     0
  0
CLASS
  1
LAYOUT
  2
AcDbLayout
  3
ObjectDBX Classes
 90
        0
280
     0
281
     0
  0
ENDSEC
  0
SECTION
  2
TABLES
  0
TABLE
  2
VPORT
  5
8
330
0
100
AcDbSymbolTable
 70
     1
  0
VPORT
  5
29
330
8
100
AcDbSymbolTableRecord
100
AcDbViewportTableRecord
  2
*Active
 70
     0
 10
0.0
 20
0.0
 11
1.0
 21
1.0
 12
139.7
 22
107.95
 13
0.0
 23
0.0
 14
10.0
 24
10.0
 15
10.0
 25
10.0
 16
0.0
 26
0.0
 36
1.0
 17
0.0
 27
0.0
 37
0.0
 40
215.9
 41
1.2941176471
 42
50.0
 43
0.0
 44
0.0
 50
0.0
 51
0.0
 71
     0
 72
  2000
 73
     1
 74
     3
 75
     0
 76
     0
 77
     0
 78
     0
281
     0
 65
     1
110
0.0
120
0.0
130
0.0
111
1.0
121
0.0
131
0.0
112
0.0
122
1.0
132
0.0
 79
     0
146
0.0
  0
ENDTAB
  0
TABLE
  2
LTYPE
  5
5
330
0
100
AcDbSymbolTable
 70
     6
  0
LTYPE
  5
14
330
5
100
AcDbSymbolTableRecord
100
AcDbLinetypeTableRecord
  2
ByBlock
 70
     0
  3

 72
    65
 73
     0
 40
0.0
  0
LTYPE
  5
15
330
5
100
AcDbSymbolTableRecord
100
AcDbLinetypeTableRecord
  2
ByLayer
 70
     0
  3

 72
    65
 73
     0
 40
0.0
  0
LTYPE
  5
16
330
5
100
AcDbSymbolTableRecord
100
AcDbLinetypeTableRecord
  2
Continuous
 70
     0
  3
Solid line
 72
    65
 73
     0
 40
0.0
  0
LTYPE
  5
6E
330
5
100
AcDbSymbolTableRecord
100
AcDbLinetypeTableRecord
  2
HIDDEN
 70
     0
  3
Hidden __ __ __ __ __ __ __ __ __ __ __ __ __ __
 72
    65
 73
     2
 40
1.905
 49
1.27
 74
     0
 49
-0.635
 74
     0
  0
LTYPE
  5
6F
330
5
100
AcDbSymbolTableRecord
100
AcDbLinetypeTableRecord
  2
PHANTOM
 70
     0
  3
Phantom ______  __  __  ______  __  __  ______
 72
    65
 73
     6
 40
12.7
 49
6.35
 74
     0
 49
-1.27
 74
     0
 49
1.27
 74
     0
 49
-1.27
 74
     0
 49
1.27
 74
     0
 49
-1.27
 74
     0
  0
LTYPE
  5
70
330
5
100
AcDbSymbolTableRecord
100
AcDbLinetypeTableRecord
  2
CENTER
 70
     0
  3
Center ____ _ ____ _ ____ _ ____ _ ____ _ ____
 72
    65
 73
     4
 40
10.16
 49
6.35
 74
     0
 49
-1.27
 74
     0
 49
1.27
 74
     0
 49
-1.27
 74
     0
  0
LTYPE
  5
71
330
5
100
AcDbSymbolTableRecord
100
AcDbLinetypeTableRecord
  2
CENTERX2
 70
     0
  3
Center (2x) ________  __  ________  __  _____
 72
    65
 73
     4
 40
20.32
 49
12.7
 74
     0
 49
-2.54
 74
     0
 49
2.54
 74
     0
 49
-2.54
 74
     0
  0
LTYPE
  5
72
330
5
100
AcDbSymbolTableRecord
100
AcDbLinetypeTableRecord
  2
DOT2
 70
     0
  3
Dot (.5x) ........................................
 72
    65
 73
     2
 40
0.635
 49
0.0
 74
     0
 49
-0.635
 74
     0
  0
ENDTAB
  0
TABLE
  2
LAYER
  5
2
330
0
100
AcDbSymbolTable
 70
    17
  0
LAYER
  5
10
330
2
100
AcDbSymbolTableRecord
100
AcDbLayerTableRecord
  2
0
 70
     0
 62
     7
  6
Continuous
370
    -3
390
F
  0
LAYER
  5
73
330
2
100
AcDbSymbolTableRecord
100
AcDbLayerTableRecord
  2
FORMAT
 70
     0
 62
     7
  6
Continuous
370
    -3
390
F
  0
LAYER
  5
74
330
2
100
AcDbSymbolTableRecord
100
AcDbLayerTableRecord
  2
YARDIMCI_GEOMETRI
 70
     0
 62
    -6
  6
Continuous
290
     0
370
    -3
390
F
  0
LAYER
  5
75
330
2
100
AcDbSymbolTableRecord
100
AcDbLayerTableRecord
  2
SAYFA_CERCEVESI
 70
     0
 62
     7
  6
Continuous
370
    25
390
F
  0
LAYER
  5
76
330
2
100
AcDbSymbolTableRecord
100
AcDbLayerTableRecord
  2
ANTET
 70
     0
 62
     7
  6
Continuous
370
    -3
390
F
  0
LAYER
  5
77
330
2
100
AcDbSymbolTableRecord
100
AcDbLayerTableRecord
  2
OLCU
 70
     0
 62
   150
  6
Continuous
370
    -3
390
F
  0
LAYER
  5
78
330
2
100
AcDbSymbolTableRecord
100
AcDbLayerTableRecord
  2
METIN
 70
     0
 62
    96
  6
Continuous
370
    -3
390
F
  0
LAYER
  5
79
330
2
100
AcDbSymbolTableRecord
100
AcDbLayerTableRecord
  2
BALON
 70
     0
 62
     5
  6
Continuous
370
    -3
390
F
  0
LAYER
  5
7A
330
2
100
AcDbSymbolTableRecord
100
AcDbLayerTableRecord
  2
VURGU
 70
     0
 62
     7
  6
Continuous
370
    -3
390
F
  0
LAYER
  5
7B
330
2
100
AcDbSymbolTableRecord
100
AcDbLayerTableRecord
  2
SILIK
 70
     0
 62
     7
  6
Continuous
370
    -3
390
F
  0
LAYER
  5
7C
330
2
100
AcDbSymbolTableRecord
100
AcDbLayerTableRecord
  2
MODEL
 70
     0
 62
     7
  6
Continuous
370
    -3
390
F
  0
LAYER
  5
7D
330
2
100
AcDbSymbolTableRecord
100
AcDbLayerTableRecord
  2
DETAYLANDıRMA
 70
     0
 62
   190
  6
Continuous
370
    -3
390
F
  0
LAYER
  5
7E
330
2
100
AcDbSymbolTableRecord
100
AcDbLayerTableRecord
  2
TOLERANS
 70
     0
 62
   230
  6
Continuous
370
    -3
390
F
  0
LAYER
  5
7F
330
2
100
AcDbSymbolTableRecord
100
AcDbLayerTableRecord
  2
MERKEZ_CIZGILERI
 70
     0
 62
    30
  6
Continuous
370
    -3
390
F
  0
LAYER
  5
80
330
2
100
AcDbSymbolTableRecord
100
AcDbLayerTableRecord
  2
KESIT-DETAY_CIZGILERI
 70
     0
 62
     7
  6
Continuous
370
    -3
390
F
  0
LAYER
  5
81
330
2
100
AcDbSymbolTableRecord
100
AcDbLayerTableRecord
  2
\U+041E\U+0421\U+0415\U+0412\U+042B\U+0415
 70
     0
 62
     7
  6
Continuous
370
    -3
390
F
  0
LAYER
  5
82
330
2
100
AcDbSymbolTableRecord
100
AcDbLayerTableRecord
  2
\U+0412\U+041E\U+0414\U+042F\U+041D\U+042B\U+0415_\U+0417\U+041D\U+0410\U+041A\U+0418
 70
     0
 62
    11
  6
Continuous
370
    -3
390
F
  0
ENDTAB
  0
TABLE
  2
STYLE
  5
3
330
0
100
AcDbSymbolTable
 70
     1
  0
STYLE
  5
11
330
3
100
AcDbSymbolTableRecord
100
AcDbTextStyleTableRecord
  2
Standard
 70
     0
 40
0.0
 41
1.0
 50
0.0
 71
     0
 42
3.5
  3
txt
  4

  0
ENDTAB
  0
TABLE
  2
VIEW
  5
6
330
0
100
AcDbSymbolTable
 70
     0
  0
ENDTAB
  0
TABLE
  2
UCS
  5
7
330
0
100
AcDbSymbolTable
 70
     0
  0
ENDTAB
  0
TABLE
  2
APPID
  5
9
330
0
100
AcDbSymbolTable
 70
     1
  0
APPID
  5
12
330
9
100
AcDbSymbolTableRecord
100
AcDbRegAppTableRecord
  2
ACAD
 70
     0
  0
ENDTAB
  0
TABLE
  2
DIMSTYLE
  5
A
330
0
100
AcDbSymbolTable
 70
     1
100
AcDbDimStyleTable
  0
DIMSTYLE
105
27
330
A
100
AcDbSymbolTableRecord
100
AcDbDimStyleTableRecord
  2
ISO-25
 70
     0
 41
2.5
 42
0.625
 43
3.75
 44
1.25
 73
     0
 74
     0
 77
     1
 78
     8
140
2.5
141
2.5
143
0.0393700787
147
0.625
171
     3
172
     1
178
     0
271
     2
272
     2
274
     3
278
    44
283
     0
284
     8
340
11
  0
ENDTAB
  0
TABLE
  2
BLOCK_RECORD
  5
1
330
0
100
AcDbSymbolTable
 70
     2
  0
BLOCK_RECORD
  5
1F
330
1
100
AcDbSymbolTableRecord
100
AcDbBlockTableRecord
  2
*Model_Space
340
22
  0
BLOCK_RECORD
  5
1B
330
1
100
AcDbSymbolTableRecord
100
AcDbBlockTableRecord
  2
*Paper_Space
340
1E
  0
BLOCK_RECORD
  5
23
330
1
100
AcDbSymbolTableRecord
100
AcDbBlockTableRecord
  2
*Paper_Space0
340
26
  0
BLOCK_RECORD
  5
88
330
1
100
AcDbSymbolTableRecord
100
AcDbBlockTableRecord
  2
SW_CENTERMARKSYMBOL_0
340
0
102
{BLKREFS
331
93
102
}
  0
ENDTAB
  0
ENDSEC
  0
SECTION
  2
BLOCKS
  0
BLOCK
  5
20
330
1F
100
AcDbEntity
  8
0
100
AcDbBlockBegin
  2
*Model_Space
 70
     0
 10
0.0
 20
0.0
 30
0.0
  3
*Model_Space
  1

  0
ENDBLK
  5
21
330
1F
100
AcDbEntity
  8
0
100
AcDbBlockEnd
  0
BLOCK
  5
1C
330
1B
100
AcDbEntity
 67
     1
  8
0
100
AcDbBlockBegin
  2
*Paper_Space
 70
     0
 10
0.0
 20
0.0
 30
0.0
  3
*Paper_Space
  1

  0
ENDBLK
  5
1D
330
1B
100
AcDbEntity
 67
     1
  8
0
100
AcDbBlockEnd
  0
BLOCK
  5
24
330
23
100
AcDbEntity
  8
0
100
AcDbBlockBegin
  2
*Paper_Space0
 70
     0
 10
0.0
 20
0.0
 30
0.0
  3
*Paper_Space0
  1

  0
ENDBLK
  5
25
330
23
100
AcDbEntity
  8
0
100
AcDbBlockEnd
  0
BLOCK
  5
89
330
88
100
AcDbEntity
  8
0
100
AcDbBlockBegin
  2
SW_CENTERMARKSYMBOL_0
 70
     0
 10
0.0
 20
0.0
 30
0.0
  3
SW_CENTERMARKSYMBOL_0
  1

  0
LINE
  5
8B
330
88
100
AcDbEntity
  8
FORMAT
 62
     0
100
AcDbLine
 10
0.0
 20
0.0
 30
0.0
 11
0.0
 21
2.5
 31
0.0
  0
LINE
  5
8C
330
88
100
AcDbEntity
  8
FORMAT
 62
     0
100
AcDbLine
 10
0.0
 20
0.0
 30
0.0
 11
-2.5
 21
0.0
 31
0.0
  0
LINE
  5
8D
330
88
100
AcDbEntity
  8
FORMAT
 62
     0
100
AcDbLine
 10
0.0
 20
0.0
 30
0.0
 11
0.0
 21
-2.5
 31
0.0
  0
LINE
  5
8E
330
88
100
AcDbEntity
  8
FORMAT
 62
     0
100
AcDbLine
 10
0.0
 20
0.0
 30
0.0
 11
2.5
 21
0.0
 31
0.0
  0
LINE
  5
8F
330
88
100
AcDbEntity
  8
FORMAT
 62
     0
100
AcDbLine
 10
0.0
 20
5.0
 30
0.0
 11
0.0
 21
92.5
 31
0.0
  0
LINE
  5
90
330
88
100
AcDbEntity
  8
FORMAT
 62
     0
100
AcDbLine
 10
-5.0
 20
0.0
 30
0.0
 11
-92.5
 21
0.0
 31
0.0
  0
LINE
  5
91
330
88
100
AcDbEntity
  8
FORMAT
 62
     0
100
AcDbLine
 10
0.0
 20
-5.0
 30
0.0
 11
0.0
 21
-92.5
 31
0.0
  0
LINE
  5
92
330
88
100
AcDbEntity
  8
FORMAT
 62
     0
100
AcDbLine
 10
5.0
 20
0.0
 30
0.0
 11
92.5
 21
0.0
 31
0.0
  0
ENDBLK
  5
8A
330
88
100
AcDbEntity
  8
0
100
AcDbBlockEnd
  0
ENDSEC
  0
SECTION
  2
ENTITIES
  0
CIRCLE
  5
83
330
1F
100
AcDbEntity
  8
0
  6
Continuous
 62
     7
370
    25
100
AcDbCircle
 10
135.7204942573
 20
109.882282191
 30
0.0
 40
89.99999999999999
  0
CIRCLE
  5
84
330
1F
100
AcDbEntity
  8
0
  6
Continuous
 62
     7
370
    25
100
AcDbCircle
 10
135.7204942573
 20
109.882282191
 30
0.0
 40
79.29999999999998
  0
CIRCLE
  5
85
330
1F
100
AcDbEntity
  8
0
  6
Continuous
 62
     7
370
    25
100
AcDbCircle
 10
135.7204942573
 20
109.882282191
 30
0.0
 40
78.9780085947537
  0
CIRCLE
  5
86
330
1F
100
AcDbEntity
  8
0
  6
Continuous
 62
     7
370
    25
100
AcDbCircle
 10
135.7204942573
 20
109.882282191
 30
0.0
 40
62.0219914052463
  0
CIRCLE
  5
87
330
1F
100
AcDbEntity
  8
0
  6
Continuous
 62
     7
370
    25
100
AcDbCircle
 10
135.7204942573
 20
109.882282191
 30
0.0
 40
61.7
  0
INSERT
  5
93
330
1F
100
AcDbEntity
  8
FORMAT
 62
     7
100
AcDbBlockReference
  2
SW_CENTERMARKSYMBOL_0
 10
135.7204942573
 20
109.882282191
 30
0.0
  0
LINE
  5
94
330
1F
100
AcDbEntity
  8
0
  6
Continuous
 62
     7
370
    25
100
AcDbLine
 10
-226.902538938
 20
199.8822857673
 30
0.0
 11
-331.5377291566
 21
199.8822857673
 31
0.0
  0
LINE
  5
95
330
1F
100
AcDbEntity
  8
0
  6
Continuous
 62
     7
370
    25
100
AcDbLine
 10
-331.5377291566
 20
19.8822786147
 30
0.0
 11
-226.902538938
 21
19.8822786147
 31
0.0
  0
ARC
  5
96
330
1F
100
AcDbEntity
  8
0
  6
Continuous
 62
     7
370
    25
100
AcDbCircle
 10
-226.9025391568
 20
197.882282191
 30
0.0
 40
2.0
100
AcDbArc
 50
69.3255752391
 51
90.0
  0
ARC
  5
97
330
1F
100
AcDbEntity
  8
0
  6
Continuous
 62
     7
370
    25
100
AcDbCircle
 10
-226.9025391568
 20
21.882282191
 30
0.0
 40
2.000000000000004
100
AcDbArc
 50
270.0
 51
290.6744247609
  0
LINE
  5
98
330
1F
100
AcDbEntity
  8
0
  6
Continuous
 62
     7
370
    25
100
AcDbLine
 10
-226.196425063
 20
20.0110768015
 30
0.0
 11
-173.8790460205
 21
39.7534837062
 31
0.0
  0
LINE
  5
99
330
1F
100
AcDbEntity
  8
0
  6
Continuous
 62
     7
370
    25
100
AcDbLine
 10
-173.8790460205
 20
180.0110806758
 30
0.0
 11
-226.196425063
 21
199.7534875805
 31
0.0
  0
ARC
  5
9A
330
1F
100
AcDbEntity
  8
0
  6
Continuous
 62
     7
370
    25
100
AcDbCircle
 10
-173.1729319262
 20
181.882282191
 30
0.0
 40
2.0
100
AcDbArc
 50
249.3255752391
 51
270.0
  0
ARC
  5
9B
330
1F
100
AcDbEntity
  8
0
  6
Continuous
 62
     7
370
    25
100
AcDbCircle
 10
-173.1729319262
 20
37.882282191
 30
0.0
 40
2.000000000000016
100
AcDbArc
 50
90.0
 51
110.6744247609
  0
LINE
  5
9C
330
1F
100
AcDbEntity
  8
0
  6
Continuous
 62
     7
370
    25
100
AcDbLine
 10
-81.5377366072
 20
179.882282489
 30
0.0
 11
-173.1729321456
 21
179.882282489
 31
0.0
  0
LINE
  5
9D
330
1F
100
AcDbEntity
  8
0
  6
Continuous
 62
     7
370
    25
100
AcDbLine
 10
-173.1729321456
 20
39.882281893
 30
0.0
 11
-81.5377366072
 21
39.882281893
 31
0.0
  0
LINE
  5
9E
330
1F
100
AcDbEntity
  8
0
  6
Continuous
 62
     7
370
    25
100
AcDbLine
 10
-331.5377291566
 20
199.8822857673
 30
0.0
 11
-331.5377291566
 21
19.8822786147
 31
0.0
  0
LINE
  5
9F
330
1F
100
AcDbEntity
  8
0
  6
Continuous
 62
     7
370
    25
100
AcDbLine
 10
-81.5377366072
 20
179.882282489
 30
0.0
 11
-81.5377366072
 21
39.882281893
 31
0.0
  0
LINE
  5
A0
330
1F
100
AcDbEntity
  8
0
  6
Continuous
 62
     1
370
    25
100
AcDbLine
 10
-226.902538938
 20
199.8822857673
 30
0.0
 11
-226.902538938
 21
19.8822786147
 31
0.0
  0
LINE
  5
A1
330
1F
100
AcDbEntity
  8
0
  6
Continuous
 62
     1
370
    25
100
AcDbLine
 10
-226.196425063
 20
199.7534875805
 30
0.0
 11
-226.196425063
 21
20.0110768015
 31
0.0
  0
LINE
  5
A2
330
1F
100
AcDbEntity
  8
0
  6
Continuous
 62
     1
370
    25
100
AcDbLine
 10
-173.8790460205
 20
180.0110806758
 30
0.0
 11
-173.8790460205
 21
39.7534837062
 31
0.0
  0
LINE
  5
A3
330
1F
100
AcDbEntity
  8
0
  6
Continuous
 62
     1
370
    25
100
AcDbLine
 10
-173.1729321456
 20
179.882282489
 30
0.0
 11
-173.1729321456
 21
39.882281893
 31
0.0
  0
LINE
  5
A4
330
1F
100
AcDbEntity
  8
0
  6
Continuous
 62
     7
370
    25
100
AcDbLine
 10
225.7204978336
 20
386.5479848314
 30
0.0
 11
225.7204978336
 21
491.1831750501
 31
0.0
  0
LINE
  5
A5
330
1F
100
AcDbEntity
  8
0
  6
Continuous
 62
     7
370
    25
100
AcDbLine
 10
45.720490681
 20
491.1831750501
 30
0.0
 11
45.720490681
 21
386.5479848314
 31
0.0
  0
ARC
  5
A6
330
1F
100
AcDbEntity
  8
0
  6
Continuous
 62
     7
370
    25
100
AcDbCircle
 10
223.7204942573
 20
386.5479850503
 30
0.0
 40
2.000000000000012
100
AcDbArc
 50
339.3255752391
 51
0.0
  0
ARC
  5
A7
330
1F
100
AcDbEntity
  8
0
  6
Continuous
 62
     7
370
    25
100
AcDbCircle
 10
47.7204942573
 20
386.5479850503
 30
0.0
 40
2.000000000000007
100
AcDbArc
 50
180.0
 51
200.6744247609
  0
LINE
  5
A8
330
1F
100
AcDbEntity
  8
0
  6
Continuous
 62
     7
370
    25
100
AcDbLine
 10
45.8492888678
 20
385.8418709565
 30
0.0
 11
65.5916957725
 21
333.524491914
 31
0.0
  0
LINE
  5
A9
330
1F
100
AcDbEntity
  8
0
  6
Continuous
 62
     7
370
    25
100
AcDbLine
 10
205.8492927421
 20
333.524491914
 30
0.0
 11
225.5916996468
 21
385.8418709565
 31
0.0
  0
ARC
  5
AA
330
1F
100
AcDbEntity
  8
0
  6
Continuous
 62
     7
370
    25
100
AcDbCircle
 10
207.7204942573
 20
332.8183778197
 30
0.0
 40
2.000000000000012
100
AcDbArc
 50
159.3255752391
 51
180.0
  0
ARC
  5
AB
330
1F
100
AcDbEntity
  8
0
  6
Continuous
 62
     7
370
    25
100
AcDbCircle
 10
63.7204942573
 20
332.8183778197
 30
0.0
 40
2.000000000000007
100
AcDbArc
 50
0.0
 51
20.6744247609
  0
LINE
  5
AC
330
1F
100
AcDbEntity
  8
0
  6
Continuous
 62
     7
370
    25
100
AcDbLine
 10
205.7204945553
 20
241.1831825007
 30
0.0
 11
205.7204945553
 21
332.8183780391
 31
0.0
  0
LINE
  5
AD
330
1F
100
AcDbEntity
  8
0
  6
Continuous
 62
     7
370
    25
100
AcDbLine
 10
65.7204939593
 20
332.8183780391
 30
0.0
 11
65.7204939593
 21
241.1831825007
 31
0.0
  0
LINE
  5
AE
330
1F
100
AcDbEntity
  8
0
  6
Continuous
 62
     7
370
    25
100
AcDbLine
 10
225.7204978336
 20
491.1831750501
 30
0.0
 11
45.720490681
 21
491.1831750501
 31
0.0
  0
LINE
  5
AF
330
1F
100
AcDbEntity
  8
0
  6
Continuous
 62
     7
370
    25
100
AcDbLine
 10
205.7204945553
 20
241.1831825007
 30
0.0
 11
65.7204939593
 21
241.1831825007
 31
0.0
  0
LINE
  5
B0
330
1F
100
AcDbEntity
  8
0
  6
Continuous
 62
     1
370
    25
100
AcDbLine
 10
225.7204978336
 20
386.5479848314
 30
0.0
 11
45.720490681
 21
386.5479848314
 31
0.0
  0
LINE
  5
B1
330
1F
100
AcDbEntity
  8
0
  6
Continuous
 62
     1
370
    25
100
AcDbLine
 10
225.5916996468
 20
385.8418709565
 30
0.0
 11
45.8492888678
 21
385.8418709565
 31
0.0
  0
LINE
  5
B2
330
1F
100
AcDbEntity
  8
0
  6
Continuous
 62
     1
370
    25
100
AcDbLine
 10
205.8492927421
 20
333.524491914
 30
0.0
 11
65.5916957725
 21
333.524491914
 31
0.0
  0
LINE
  5
B3
330
1F
100
AcDbEntity
  8
0
  6
Continuous
 62
     1
370
    25
100
AcDbLine
 10
205.7204945553
 20
332.8183780391
 30
0.0
 11
65.7204939593
 21
332.8183780391
 31
0.0
  0
LINE
  5
B4
330
1F
100
AcDbEntity
  8
0
  6
Continuous
 62
     7
370
    25
100
AcDbLine
 10
471.598705718
 20
19.8822786147
 30
0.0
 11
576.2338959367
 21
19.8822786147
 31
0.0
  0
LINE
  5
B5
330
1F
100
AcDbEntity
  8
0
  6
Continuous
 62
     7
370
    25
100
AcDbLine
 10
576.2338959367
 20
199.8822857673
 30
0.0
 11
471.598705718
 21
199.8822857673
 31
0.0
  0
ARC
  5
B6
330
1F
100
AcDbEntity
  8
0
  6
Continuous
 62
     7
370
    25
100
AcDbCircle
 10
471.5987059369
 20
21.882282191
 30
0.0
 40
2.000000000000004
100
AcDbArc
 50
249.3255752391
 51
270.0
  0
ARC
  5
B7
330
1F
100
AcDbEntity
  8
0
  6
Continuous
 62
     7
370
    25
100
AcDbCircle
 10
471.5987059369
 20
197.882282191
 30
0.0
 40
2.0
100
AcDbArc
 50
90.0
 51
110.6744247609
  0
LINE
  5
B8
330
1F
100
AcDbEntity
  8
0
  6
Continuous
 62
     7
370
    25
100
AcDbLine
 10
470.8925918431
 20
199.7534875805
 30
0.0
 11
418.5752128006
 21
180.0110806758
 31
0.0
  0
LINE
  5
B9
330
1F
100
AcDbEntity
  8
0
  6
Continuous
 62
     7
370
    25
100
AcDbLine
 10
418.5752128006
 20
39.7534837062
 30
0.0
 11
470.8925918431
 21
20.0110768015
 31
0.0
  0
ARC
  5
BA
330
1F
100
AcDbEntity
  8
0
  6
Continuous
 62
     7
370
    25
100
AcDbCircle
 10
417.8690987063
 20
37.882282191
 30
0.0
 40
2.000000000000026
100
AcDbArc
 50
69.3255752391
 51
90.0
  0
ARC
  5
BB
330
1F
100
AcDbEntity
  8
0
  6
Continuous
 62
     7
370
    25
100
AcDbCircle
 10
417.8690987063
 20
181.882282191
 30
0.0
 40
2.000000000000006
100
AcDbArc
 50
270.0
 51
290.6744247609
  0
LINE
  5
BC
330
1F
100
AcDbEntity
  8
0
  6
Continuous
 62
     7
370
    25
100
AcDbLine
 10
326.2339033873
 20
39.882281893
 30
0.0
 11
417.8690989257
 21
39.882281893
 31
0.0
  0
LINE
  5
BD
330
1F
100
AcDbEntity
  8
0
  6
Continuous
 62
     7
370
    25
100
AcDbLine
 10
417.8690989257
 20
179.882282489
 30
0.0
 11
326.2339033873
 21
179.882282489
 31
0.0
  0
LINE
  5
BE
330
1F
100
AcDbEntity
  8
0
  6
Continuous
 62
     7
370
    25
100
AcDbLine
 10
576.2338959367
 20
109.882282191
 30
0.0
 11
576.2338959367
 21
199.8822857673
 31
0.0
  0
LINE
  5
BF
330
1F
100
AcDbEntity
  8
0
  6
Continuous
 62
     7
370
    25
100
AcDbLine
 10
576.2338959367
 20
19.8822786147
 30
0.0
 11
576.2338959367
 21
109.882282191
 31
0.0
  0
LINE
  5
C0
330
1F
100
AcDbEntity
  8
0
  6
Continuous
 62
     7
370
    25
100
AcDbLine
 10
326.2339033873
 20
109.882282191
 30
0.0
 11
326.2339033873
 21
179.882282489
 31
0.0
  0
LINE
  5
C1
330
1F
100
AcDbEntity
  8
0
  6
Continuous
 62
     7
370
    25
100
AcDbLine
 10
326.2339033873
 20
39.882281893
 30
0.0
 11
326.2339033873
 21
109.882282191
 31
0.0
  0
LINE
  5
C2
330
1F
100
AcDbEntity
  8
0
  6
Continuous
 62
     1
370
    25
100
AcDbLine
 10
471.598705718
 20
109.882282191
 30
0.0
 11
471.598705718
 21
199.8822857673
 31
0.0
  0
LINE
  5
C3
330
1F
100
AcDbEntity
  8
0
  6
Continuous
 62
     1
370
    25
100
AcDbLine
 10
471.598705718
 20
19.8822786147
 30
0.0
 11
471.598705718
 21
109.882282191
 31
0.0
  0
LINE
  5
C4
330
1F
100
AcDbEntity
  8
0
  6
Continuous
 62
     1
370
    25
100
AcDbLine
 10
470.8925918431
 20
109.882282191
 30
0.0
 11
470.8925918431
 21
199.7534875805
 31
0.0
  0
LINE
  5
C5
330
1F
100
AcDbEntity
  8
0
  6
Continuous
 62
     1
370
    25
100
AcDbLine
 10
470.8925918431
 20
20.0110768015
 30
0.0
 11
470.8925918431
 21
109.882282191
 31
0.0
  0
LINE
  5
C6
330
1F
100
AcDbEntity
  8
0
  6
Continuous
 62
     1
370
    25
100
AcDbLine
 10
418.5752128006
 20
109.882282191
 30
0.0
 11
418.5752128006
 21
180.0110806758
 31
0.0
  0
LINE
  5
C7
330
1F
100
AcDbEntity
  8
0
  6
Continuous
 62
     1
370
    25
100
AcDbLine
 10
418.5752128006
 20
39.7534837062
 30
0.0
 11
418.5752128006
 21
109.882282191
 31
0.0
  0
LINE
  5
C8
330
1F
100
AcDbEntity
  8
0
  6
Continuous
 62
     1
370
    25
100
AcDbLine
 10
417.8690989257
 20
109.882282191
 30
0.0
 11
417.8690989257
 21
179.882282489
 31
0.0
  0
LINE
  5
C9
330
1F
100
AcDbEntity
  8
0
  6
Continuous
 62
     1
370
    25
100
AcDbLine
 10
417.8690989257
 20
39.882281893
 30
0.0
 11
417.8690989257
 21
109.882282191
 31
0.0
  0
LINE
  5
CA
330
1F
100
AcDbEntity
  8
0
  6
Continuous
 62
     7
370
    25
100
AcDbLine
 10
45.720490681
 20
-205.7822397081
 30
0.0
 11
45.720490681
 21
-310.4174299268
 31
0.0
  0
LINE
  5
CB
330
1F
100
AcDbEntity
  8
0
  6
Continuous
 62
     7
370
    25
100
AcDbLine
 10
225.7204978336
 20
-310.4174299268
 30
0.0
 11
225.7204978336
 21
-205.7822397081
 31
0.0
  0
ARC
  5
CC
330
1F
100
AcDbEntity
  8
0
  6
Continuous
 62
     7
370
    25
100
AcDbCircle
 10
47.7204942573
 20
-205.782239927
 30
0.0
 40
2.000000000000007
100
AcDbArc
 50
159.3255752391
 51
180.0
  0
ARC
  5
CD
330
1F
100
AcDbEntity
  8
0
  6
Continuous
 62
     7
370
    25
100
AcDbCircle
 10
223.7204942573
 20
-205.782239927
 30
0.0
 40
2.000000000000012
100
AcDbArc
 50
0.0
 51
20.6744247609
  0
LINE
  5
CE
330
1F
100
AcDbEntity
  8
0
  6
Continuous
 62
     7
370
    25
100
AcDbLine
 10
225.5916996468
 20
-205.0761258332
 30
0.0
 11
205.8492927421
 21
-152.7587467907
 31
0.0
  0
LINE
  5
CF
330
1F
100
AcDbEntity
  8
0
  6
Continuous
 62
     7
370
    25
100
AcDbLine
 10
65.5916957725
 20
-152.7587467907
 30
0.0
 11
45.8492888678
 21
-205.0761258332
 31
0.0
  0
ARC
  5
D0
330
1F
100
AcDbEntity
  8
0
  6
Continuous
 62
     7
370
    25
100
AcDbCircle
 10
63.7204942573
 20
-152.0526326964
 30
0.0
 40
2.000000000000007
100
AcDbArc
 50
339.3255752391
 51
0.0
  0
ARC
  5
D1
330
1F
100
AcDbEntity
  8
0
  6
Continuous
 62
     7
370
    25
100
AcDbCircle
 10
207.7204942573
 20
-152.0526326964
 30
0.0
 40
2.000000000000003
100
AcDbArc
 50
180.0
 51
200.6744247609
  0
LINE
  5
D2
330
1F
100
AcDbEntity
  8
0
  6
Continuous
 62
     7
370
    25
100
AcDbLine
 10
65.7204939593
 20
-60.4174373774
 30
0.0
 11
65.7204939593
 21
-152.0526329158
 31
0.0
  0
LINE
  5
D3
330
1F
100
AcDbEntity
  8
0
  6
Continuous
 62
     7
370
    25
100
AcDbLine
 10
205.7204945553
 20
-152.0526329158
 30
0.0
 11
205.7204945553
 21
-60.4174373774
 31
0.0
  0
LINE
  5
D4
330
1F
100
AcDbEntity
  8
0
  6
Continuous
 62
     7
370
    25
100
AcDbLine
 10
45.720490681
 20
-310.4174299268
 30
0.0
 11
225.7204978336
 21
-310.4174299268
 31
0.0
  0
LINE
  5
D5
330
1F
100
AcDbEntity
  8
0
  6
Continuous
 62
     7
370
    25
100
AcDbLine
 10
65.7204939593
 20
-60.4174373774
 30
0.0
 11
205.7204945553
 21
-60.4174373774
 31
0.0
  0
LINE
  5
D6
330
1F
100
AcDbEntity
  8
0
  6
Continuous
 62
     1
370
    25
100
AcDbLine
 10
45.720490681
 20
-205.7822397081
 30
0.0
 11
225.7204978336
 21
-205.7822397081
 31
0.0
  0
LINE
  5
D7
330
1F
100
AcDbEntity
  8
0
  6
Continuous
 62
     1
370
    25
100
AcDbLine
 10
45.8492888678
 20
-205.0761258332
 30
0.0
 11
225.5916996468
 21
-205.0761258332
 31
0.0
  0
LINE
  5
D8
330
1F
100
AcDbEntity
  8
0
  6
Continuous
 62
     1
370
    25
100
AcDbLine
 10
65.5916957725
 20
-152.7587467907
 30
0.0
 11
205.8492927421
 21
-152.7587467907
 31
0.0
  0
LINE
  5
D9
330
1F
100
AcDbEntity
  8
0
  6
Continuous
 62
     1
370
    25
100
AcDbLine
 10
65.7204939593
 20
-152.0526329158
 30
0.0
 11
205.7204945553
 21
-152.0526329158
 31
0.0
  0
LINE
  5
DA
330
1F
100
AcDbEntity
  8
0
  6
Continuous
 62
     7
370
    25
100
AcDbLine
 10
487.0736836236
 20
-90.128188359
 30
0.0
 11
413.0854310692
 21
-47.4156793207
 31
0.0
  0
LINE
  5
DB
330
1F
100
AcDbEntity
  8
0
  6
Continuous
 62
     7
370
    25
100
AcDbLine
 10
323.0927425589
 20
-203.3044760327
 30
0.0
 11
397.0809951133
 21
-246.016985071
 31
0.0
  0
SPLINE
  5
DC
330
1F
100
AcDbEntity
  8
0
  6
Continuous
 62
     7
370
    25
100
AcDbSpline
210
0.0
220
0.0
230
1.0
 70
     8
 71
     3
 72
    11
 73
     7
 74
     0
 42
0.000000001
 43
0.00000001
 40
0.0
 40
0.0
 40
0.0
 40
0.0
 40
0.0804503822985242
 40
0.509519405671431
 40
0.937391551490557
 40
1.0
 40
1.0
 40
1.0
 40
1.0
 10
495.2260102367015
 20
-96.88269977316699
 30
0.0
 10
495.1171008848884
 20
-96.7504313894543
 30
0.0
 10
494.4273412265438
 20
-95.91273110347758
 30
0.0
 10
493.0182281941976
 20
-94.55112136579582
 30
0.0
 10
491.6102783449613
 20
-93.25030069223857
 30
0.0
 10
490.7923938281974
 20
-92.65674472050283
 30
0.0
 10
490.6879932030828
 20
-92.58097899414464
 30
0.0
  0
SPLINE
  5
DD
330
1F
100
AcDbEntity
  8
0
  6
Continuous
 62
     7
370
    25
100
AcDbSpline
210
0.0
220
0.0
230
1.0
 70
     8
 71
     3
 72
    10
 73
     6
 74
     0
 42
0.000000001
 43
0.00000001
 40
0.0
 40
0.0
 40
0.0
 40
0.0
 40
0.429629441469394
 40
0.9593512006837771
 40
1.0
 40
1.0
 40
1.0
 40
1.0
 10
401.3195166413766
 20
-248.039687655778
 30
0.0
 10
401.9893030067736
 20
-248.2919800748043
 30
0.0
 10
403.484918278501
 20
-248.855342386029
 30
0.0
 10
405.1002350302772
 20
-249.3283830261977
 30
0.0
 10
406.0573453065113
 20
-249.5085662661802
 30
0.0
 10
406.1255560213883
 20
-249.521407448553
 30
0.0
  0
LINE
  5
DE
330
1F
100
AcDbEntity
  8
0
  6
Continuous
 62
     7
370
    25
100
AcDbLine
 10
411.2662993305
 20
-250.2941881469
 30
0.0
 11
455.1383540111
 21
-253.6516858166
 31
0.0
  0
LINE
  5
DF
330
1F
100
AcDbEntity
  8
0
  6
Continuous
 62
     7
370
    25
100
AcDbLine
 10
522.7185681078
 20
-136.5866402792
 30
0.0
 11
497.871453331
 21
-100.2734090481
 31
0.0
  0
LINE
  5
E0
330
1F
100
AcDbEntity
  8
0
  6
Continuous
 62
     7
370
    25
100
AcDbLine
 10
579.8629314364
 20
-166.7876685144
 30
0.0
 11
519.5656848599
 21
-131.9788089932
 31
0.0
  0
LINE
  5
E1
330
1F
100
AcDbEntity
  8
0
  6
Continuous
 62
     7
370
    25
100
AcDbLine
 10
449.5713756717
 20
-253.2256491908
 30
0.0
 11
509.8686222482
 21
-288.034508712
 31
0.0
  0
LWPOLYLINE
  5
E2
330
1F
100
AcDbEntity
  8
0
  6
Continuous
 62
     7
370
    25
100
AcDbPolyline
 90
      121
 70
   128
 43
0.0
 10
304.4494739785
 20
-162.0984441686
 10
304.5366916131
 20
-158.2019944917
 10
304.7981021726
 20
-154.2155276768
 10
305.2329838923
 20
-150.1499718881
 10
305.8401566603
 20
-146.0164651347
 10
306.6179451394
 20
-141.8263434796
 10
307.5642209138
 20
-137.5910904733
 10
308.6763919523
 20
-133.3223105363
 10
309.9514078768
 20
-129.031709948
 10
311.3857810354
 20
-124.7310405748
 10
312.9755654296
 20
-120.4320983468
 10
314.7164199339
 20
-116.1466639476
 10
316.6035608811
 20
-111.8864815175
 10
318.6318200137
 20
-107.6632282394
 10
320.7956392163
 20
-103.4884839209
 10
323.0890863198
 20
-99.3736853671
 10
325.5058761755
 20
-95.3301142159
 10
328.0393811914
 20
-91.3688543523
 10
330.6826629426
 20
-87.5007614935
 10
333.4284721711
 20
-83.736438854
 10
336.2692803963
 20
-80.0862006459
 10
339.1973088902
 20
-76.5600614356
 10
342.2045260441
 20
-73.1676707436
 10
345.282689515
 20
-69.9183434669
 10
348.4233659818
 20
-66.8209754695
 10
351.6179429995
 20
-63.8840610742
 10
354.8576671945
 20
-61.1156466781
 10
358.1336580941
 20
-58.5233166848
 10
361.4369364439
 20
-56.1141893253
 10
364.7584469277
 20
-53.8948548719
 10
368.0890868141
 20
-51.8714016868
 10
371.4197267004
 20
-50.0493799124
 10
374.7412371842
 20
-48.4337799901
 10
378.044515534
 20
-47.0290233477
 10
381.3205064336
 20
-45.8389747584
 10
384.5602306286
 20
-44.866883218
 10
387.7548076463
 20
-44.1154174979
 10
390.8954841131
 20
-43.5866376315
 10
393.973647584
 20
-43.2819930132
 10
396.9808647379
 20
-43.2023246841
 10
399.9088932319
 20
-43.3478341541
 10
402.749701457
 20
-43.7181450007
 10
405.4955106855
 20
-44.3122237854
 10
408.1387924367
 20
-45.128448495
 10
410.6722974526
 20
-46.1645857302
 10
413.0890873083
 20
-47.4177907088
 10
415.3825344118
 20
-48.8846316002
 10
417.5463536144
 20
-50.5610834451
 10
419.574612747
 20
-52.4425585747
 10
421.4617536942
 20
-54.5238944454
 10
423.2026081985
 20
-56.7993810168
 10
424.7923925927
 20
-59.2627972536
 10
426.2267657513
 20
-61.9073746287
 10
427.5017816758
 20
-64.7258731652
 10
428.6139527143
 20
-67.7105677537
 10
429.5602284887
 20
-70.8532740064
 10
430.3380169678
 20
-74.1453801982
 10
430.9451897358
 20
-77.5778601955
 10
431.3800714555
 20
-81.1413122382
 10
431.641482015
 20
-84.8259608455
 10
431.7286996497
 20
-88.6217111848
 10
431.641482015
 20
-92.5181608617
 10
431.3800714555
 20
-96.5046276766
 10
430.9451897358
 20
-100.5701834653
 10
430.3380169678
 20
-104.7036902187
 10
429.5602284887
 20
-108.8938118738
 10
428.6139527143
 20
-113.1290648801
 10
427.5017816758
 20
-117.3978448171
 10
426.2267657513
 20
-121.6884454054
 10
424.7923925927
 20
-125.9891147786
 10
423.2026081985
 20
-130.2880570067
 10
421.4617536942
 20
-134.5734914058
 10
419.574612747
 20
-138.833673836
 10
417.5463536144
 20
-143.056927114
 10
415.3825344118
 20
-147.2316714325
 10
413.0890873083
 20
-151.3464699863
 10
410.6722974526
 20
-155.3900411376
 10
408.1387924367
 20
-159.3513010012
 10
405.4955106855
 20
-163.2193938599
 10
402.749701457
 20
-166.9837164994
 10
399.9088932319
 20
-170.6339547075
 10
396.9808647379
 20
-174.1600939178
 10
393.973647584
 20
-177.5524846098
 10
390.8954841131
 20
-180.8018118865
 10
387.7548076463
 20
-183.8991798839
 10
384.5602306286
 20
-186.8360942792
 10
381.3205064336
 20
-189.6045086754
 10
378.044515534
 20
-192.1968386686
 10
374.7412371842
 20
-194.6059660281
 10
371.4197267004
 20
-196.8253004815
 10
368.0890868141
 20
-198.8487536666
 10
364.7584469277
 20
-200.6707754411
 10
361.4369364439
 20
-202.2863753633
 10
358.1336580941
 20
-203.6911320058
 10
354.8576671945
 20
-204.881180595
 10
351.6179429995
 20
-205.8532721355
 10
348.4233659818
 20
-206.6047378555
 10
345.282689515
 20
-207.133517722
 10
342.2045260441
 20
-207.4381623403
 10
339.1973088902
 20
-207.5178306693
 10
336.2692803963
 20
-207.3723211994
 10
333.4284721711
 20
-207.0020103528
 10
330.6826629426
 20
-206.407931568
 10
328.0393811914
 20
-205.5917068584
 10
325.5058761755
 20
-204.5555696232
 10
323.0890863198
 20
-203.3023646447
 10
320.7956392163
 20
-201.8355237532
 10
318.6318200137
 20
-200.1590719083
 10
316.6035608811
 20
-198.2775967787
 10
314.7164199339
 20
-196.1962609081
 10
312.9755654296
 20
-193.9207743367
 10
311.3857810354
 20
-191.4573580999
 10
309.9514078768
 20
-188.8127807247
 10
308.6763919523
 20
-185.9942821883
 10
307.5642209138
 20
-183.0095875998
 10
306.6179451394
 20
-179.8668813471
 10
305.8401566603
 20
-176.5747751552
 10
305.2329838923
 20
-173.142295158
 10
304.7981021726
 20
-169.5788431152
 10
304.5366916131
 20
-165.894194508
 10
304.4494739785
 20
-162.0984441686
  0
LWPOLYLINE
  5
E3
330
1F
100
AcDbEntity
  8
0
  6
Continuous
 62
     7
370
    25
100
AcDbPolyline
 90
      114
 70
   128
 43
0.0
 10
312.0155181724
 20
-157.7306598263
 10
312.1021773613
 20
-154.0820730904
 10
312.3618915102
 20
-150.3447063828
 10
312.7938545606
 20
-146.5301144813
 10
313.3967283501
 20
-142.6500893782
 10
314.1686584173
 20
-138.7166188364
 10
315.1072476602
 20
-134.741866235
 10
316.2096037513
 20
-130.7381142992
 10
317.4723180644
 20
-126.7177369613
 10
318.8914867474
 20
-122.6931659024
 10
320.4627159915
 20
-118.6768373203
 10
322.1811589092
 20
-114.6811675983
 10
324.0415023632
 20
-110.7185046342
 10
326.0379933088
 20
-106.8010974246
 10
328.164462501
 20
-102.9410550015
 10
330.4143350315
 20
-99.1503068899
 10
332.7806593045
 20
-95.4405742126
 10
335.2561175733
 20
-91.8233240631
 10
337.8330628191
 20
-88.309726924
 10
340.5035266534
 20
-84.9106551458
 10
343.2592588306
 20
-81.6366084261
 10
346.0917351506
 20
-78.4977092471
 10
348.992204874
 20
-75.5036572521
 10
351.9517025758
 20
-72.6637102358
 10
354.9610784386
 20
-69.9866423208
 10
358.011033814
 20
-67.4807355964
 10
361.0921390032
 20
-65.153727268
 10
364.1948721111
 20
-63.0128115617
 10
367.3096415193
 20
-61.0646085001
 10
370.4268202125
 20
-59.3151440861
 10
373.5367731085
 20
-57.7698162742
 10
376.6298875153
 20
-56.4334078067
 10
379.6966028485
 20
-55.3100447237
 10
382.7274406768
 20
-54.4032033522
 10
385.7130312291
 20
-53.7156889212
 10
388.6441469797
 20
-53.2496222563
 10
391.5117289903
 20
-53.0064428242
 10
394.3069132519
 20
-52.9869056932
 10
397.0210596605
 20
-53.191064806
 10
399.6457783591
 20
-53.6183003584
 10
402.1729560794
 20
-54.267285342
 10
404.5947851177
 20
-55.1360114021
 10
406.9037738715
 20
-56.2217979644
 10
409.0927916211
 20
-57.5212846349
 10
411.1550685289
 20
-59.0304585761
 10
413.084229884
 20
-60.7446529895
 10
414.8743119074
 20
-62.6585744938
 10
416.5197880935
 20
-64.7662970436
 10
418.0155639421
 20
-67.0613136404
 10
419.3570243732
 20
-69.5365272114
 10
420.5400179223
 20
-72.1842871103
 10
421.5608830819
 20
-74.9964149757
 10
422.4164746434
 20
-77.964210817
 10
423.1041426237
 20
-81.078504724
 10
423.6217638753
 20
-84.3296697977
 10
423.9677315497
 20
-87.7076601725
 10
424.1409867072
 20
-91.2020292704
 10
424.1409867072
 20
-94.8019799883
 10
423.9677315497
 20
-98.4963852332
 10
423.6217638753
 20
-102.2738213824
 10
423.1041426237
 20
-106.1226192323
 10
422.4164746434
 20
-110.0308776893
 10
421.5608830819
 20
-113.9865185206
 10
420.5400179223
 20
-117.9773122107
 10
419.3570243732
 20
-121.9909273883
 10
418.0155639421
 20
-126.0149582055
 10
416.5197880935
 20
-130.0369608371
 10
414.8743119074
 20
-134.0445097525
 10
413.084229884
 20
-138.0252159683
 10
411.1550685289
 20
-141.9667726715
 10
409.0927916211
 20
-145.8570008483
 10
406.9037738715
 20
-149.6838736155
 10
404.5947851177
 20
-153.4355618478
 10
402.1729560794
 20
-157.100472197
 10
399.6457783591
 20
-160.6672744689
 10
397.0210596605
 20
-164.1249457262
 10
394.3069132519
 20
-167.4627915799
 10
391.5117289903
 20
-170.6705055034
 10
388.6441469797
 20
-173.7381657875
 10
385.7130312291
 20
-176.6562933336
 10
382.7274406768
 20
-179.415868381
 10
379.6966028485
 20
-182.0083578808
 10
376.6298875153
 20
-184.4257489543
 10
373.5367731085
 20
-186.6605743651
 10
370.4268202125
 20
-188.7059217372
 10
367.3096415193
 20
-190.5554752352
 10
364.1948721111
 20
-192.2035083843
 10
361.0921390032
 20
-193.6449320721
 10
358.011033814
 20
-194.8752920744
 10
354.9610784386
 20
-195.8907888713
 10
351.9517025758
 20
-196.6882723696
 10
348.992204874
 20
-197.2652886676
 10
346.0917351506
 20
-197.6200477338
 10
343.2592588306
 20
-197.7514561034
 10
340.5035266534
 20
-197.6591100311
 10
337.8330628191
 20
-197.3432901672
 10
335.2561175733
 20
-196.8049706783
 10
332.7806593045
 20
-196.0458238096
 10
330.4143350315
 20
-195.0681909834
 10
328.164462501
 20
-193.875090403
 10
326.0379933088
 20
-192.4702170495
 10
324.0415023632
 20
-190.8579092203
 10
322.1811589092
 20
-189.0431530887
 10
320.4627159915
 20
-187.0315553273
 10
318.8914867474
 20
-184.8293294162
 10
317.4723180644
 20
-182.4432956415
 10
316.2096037513
 20
-179.8808172172
 10
315.1072476602
 20
-177.1498185329
 10
314.1686584173
 20
-174.2587380048
 10
313.3967283501
 20
-171.2165189478
 10
312.7938545606
 20
-168.0325571058
 10
312.3618915102
 20
-164.7166991264
 10
312.1021773613
 20
-161.2791919925
 10
312.0155181724
 20
-157.7306598263
  0
ARC
  5
E4
330
1F
100
AcDbEntity
  8
0
  6
Continuous
 62
     7
370
    25
100
AcDbCircle
 10
471.987184533
 20
-116.2522053732
 30
0.0
 40
30.16731210708553
100
AcDbArc
 50
52.0415538611
 51
59.9937647834
  0
LWPOLYLINE
  5
E5
330
1F
100
AcDbEntity
  8
0
  6
Continuous
 62
     7
370
    25
100
AcDbPolyline
 90
        3
 70
   128
 43
0.0
 10
401.1824761634
 20
-247.9877946767
 10
399.4941287298
 20
-247.2680786615
 10
397.0809951133
 20
-246.016985071
  0
ARC
  5
E6
330
1F
100
AcDbEntity
  8
0
  6
Continuous
 62
     7
370
    25
100
AcDbCircle
 10
466.5882670355
 20
-121.8020448475
 30
0.0
 40
37.96990734679986
100
AcDbArc
 50
24.0560019002
 51
40.80457326
  0
ARC
  5
E7
330
1F
100
AcDbEntity
  8
0
  6
Continuous
 62
     7
370
    25
100
AcDbCircle
 10
414.2400289549
 20
-213.1445246872
 30
0.0
 40
37.26599185604913
100
AcDbArc
 50
257.7110832305
 51
275.4463676909
  0
ARC
  5
E8
330
1F
100
AcDbEntity
  8
0
  6
Continuous
 62
     7
370
    25
100
AcDbCircle
 10
497.0715691197
 20
-154.0386641765
 30
0.0
 40
31.02163269731883
100
AcDbArc
 50
25.8832304427
 51
34.234128397
  0
ARC
  5
E9
330
1F
100
AcDbEntity
  8
0
  6
Continuous
 62
     7
370
    25
100
AcDbCircle
 10
457.4109120066
 20
-223.4861158308
 30
0.0
 40
30.25105175711721
100
AcDbArc
 50
265.6916947368
 51
272.4613750589
  0
LWPOLYLINE
  5
EA
330
1F
100
AcDbEntity
  8
0
  6
Continuous
 62
     7
370
    25
100
AcDbPolyline
 90
       55
 70
   128
 43
0.0
 10
579.8629314364
 20
-166.7876685144
 10
580.3805737615
 20
-167.0954672929
 10
582.360669583
 20
-168.451835235
 10
584.2090644055
 20
-170.0152968039
 10
585.91926498
 20
-171.7803623691
 10
587.4852601124
 20
-173.740835115
 10
588.9015549073
 20
-175.8898277741
 10
590.1631760364
 20
-178.2197854413
 10
591.2656849099
 20
-180.722532724
 10
592.2052119202
 20
-183.3892752663
 10
592.978453808
 20
-186.2106484182
 10
593.5827026384
 20
-189.1767370103
 10
594.0158352639
 20
-192.277122502
 10
594.2763185927
 20
-195.5009225253
 10
594.3632517361
 20
-198.8368045778
 10
594.2763185927
 20
-202.2730575011
 10
594.0158352639
 20
-205.7976051743
 10
593.5827026384
 20
-209.3980749507
 10
592.978453808
 20
-213.0618143926
 10
592.2052119202
 20
-216.7759536251
 10
591.2656849099
 20
-220.5274509638
 10
590.1631760364
 20
-224.3031278968
 10
588.9015549073
 20
-228.0897223143
 10
587.4852601124
 20
-231.8739341369
 10
585.91926498
 20
-235.642466377
 10
584.2090644055
 20
-239.382087496
 10
582.360669583
 20
-243.0796603011
 10
580.3805737615
 20
-246.7221982162
 10
578.2757311709
 20
-250.2969017825
 10
576.0535333148
 20
-253.7912210141
 10
573.7217878969
 20
-257.1928766887
 10
571.2886872108
 20
-260.4899211821
 10
568.7627712619
 20
-263.6707810505
 10
566.152918547
 20
-266.7242714784
 10
563.4682933715
 20
-269.6396753615
 10
560.7183260929
 20
-272.4067486287
 10
557.912676242
 20
-275.0157780336
 10
555.0611982788
 20
-277.4575887553
 10
552.1739086652
 20
-279.7236120776
 10
549.260949316
 20
-281.8058821528
 10
546.3325517079
 20
-283.6970932232
 10
543.3990019768
 20
-285.3905954357
 10
540.4706043687
 20
-286.8804402758
 10
537.5576450194
 20
-288.1614014769
 10
534.6703554059
 20
-289.2289717849
 10
531.8188774426
 20
-290.0794074421
 10
529.0132275917
 20
-290.709712404
 10
526.2632603131
 20
-291.1176837738
 10
523.5786351377
 20
-291.3018821414
 10
520.9687824228
 20
-291.2616635189
 10
518.4428664738
 20
-290.9971641287
 10
516.0097657878
 20
-290.5093178919
 10
513.6780203699
 20
-289.7998381722
 10
511.4558225138
 20
-288.871213973
 10
509.8686222482
 20
-288.034508712
  0
LWPOLYLINE
  5
EB
330
1F
100
AcDbEntity
  8
0
  6
Continuous
 62
     1
370
    25
100
AcDbPolyline
 90
       59
 70
   128
 43
0.0
 10
490.5427907245
 20
-92.4665752863
 10
491.5346061687
 20
-93.2735924834
 10
493.5628653014
 20
-95.155067613
 10
495.4500062486
 20
-97.2364034837
 10
497.1908607529
 20
-99.5118900551
 10
498.7806451471
 20
-101.9753062919
 10
500.2150183057
 20
-104.619883667
 10
501.4900342302
 20
-107.4383822035
 10
502.6022052687
 20
-110.423076792
 10
503.5484810431
 20
-113.5657830447
 10
504.3262695222
 20
-116.8578892365
 10
504.9334422902
 20
-120.2903692338
 10
505.3683240099
 20
-123.8538212765
 10
505.6297345694
 20
-127.5384698838
 10
505.716952204
 20
-131.3342202232
 10
505.6297345694
 20
-135.2306699001
 10
505.3683240099
 20
-139.217136715
 10
504.9334422902
 20
-143.2826925036
 10
504.3262695222
 20
-147.4161992571
 10
503.5484810431
 20
-151.6063209121
 10
502.6022052687
 20
-155.8415739184
 10
501.4900342302
 20
-160.1103538555
 10
500.2150183057
 20
-164.4009544437
 10
498.7806451471
 20
-168.7016238169
 10
497.1908607529
 20
-173.000566045
 10
495.4500062486
 20
-177.2860004441
 10
493.5628653014
 20
-181.5461828743
 10
491.5346061687
 20
-185.7694361524
 10
489.3707869662
 20
-189.9441804709
 10
487.0773398627
 20
-194.0589790246
 10
484.660550007
 20
-198.1025501759
 10
482.1270449911
 20
-202.0638100395
 10
479.4837632399
 20
-205.9319028982
 10
476.7379540113
 20
-209.6962255377
 10
473.8971457862
 20
-213.3464637458
 10
470.9691172923
 20
-216.8726029561
 10
467.9619001384
 20
-220.2649936481
 10
464.8837366675
 20
-223.5143209249
 10
461.7430602007
 20
-226.6116889223
 10
458.548483183
 20
-229.5486033175
 10
455.308758988
 20
-232.3170177137
 10
452.0327680884
 20
-234.9093477069
 10
448.7294897386
 20
-237.3184750664
 10
445.4079792548
 20
-239.5378095199
 10
442.0773393684
 20
-241.5612627049
 10
438.7466994821
 20
-243.3832844794
 10
435.4251889983
 20
-244.9988844017
 10
432.1219106485
 20
-246.4036410441
 10
428.8459197489
 20
-247.5936896333
 10
425.6061955539
 20
-248.5657811738
 10
422.4116185362
 20
-249.3172468938
 10
419.2709420693
 20
-249.8460267603
 10
416.1927785985
 20
-250.1506713786
 10
413.1855614446
 20
-250.2303397076
 10
410.2575329506
 20
-250.0848302377
 10
407.4167247255
 20
-249.7145193911
 10
404.670915497
 20
-249.1204406064
 10
402.0276337457
 20
-248.3042158967
 10
401.1824761634
 20
-247.9877946767
  0
ARC
  5
EC
330
1F
100
AcDbEntity
  8
0
  6
Continuous
 62
     1
370
    25
100
AcDbCircle
 10
517.4799004153
 20
-211.6015624036
 30
0.0
 40
133.3167588365766
100
AcDbArc
 50
137.2039358433
 51
162.8014386332
  0
LWPOLYLINE
  5
ED
330
1F
100
AcDbEntity
  8
0
  6
Continuous
 62
     1
370
    25
100
AcDbPolyline
 90
       47
 70
   128
 43
0.0
 10
501.2603918577
 20
-106.3243956644
 10
501.9043061409
 20
-107.8133937562
 10
503.0148861359
 20
-110.7938159149
 10
503.9598132111
 20
-113.9320231426
 10
504.7364847988
 20
-117.2194204434
 10
505.342788288
 20
-120.6469877688
 10
505.7770483417
 20
-124.2053393286
 10
506.0380848479
 20
-127.8847156115
 10
506.125176042
 20
-131.6750347131
 10
506.0380848479
 20
-135.565907167
 10
505.7770483417
 20
-139.5466697849
 10
505.342788288
 20
-143.6064073303
 10
504.7364847988
 20
-147.733997764
 10
503.9598132111
 20
-151.9181209926
 10
503.0148861359
 20
-156.1473177989
 10
501.9043061409
 20
-160.4099883264
 10
500.6311130676
 20
-164.6944506292
 10
499.1987998362
 20
-168.9889604463
 10
497.6112861035
 20
-173.2817522636
 10
495.8729235316
 20
-177.5610545238
 10
493.9884852511
 20
-181.8151382952
 10
491.9631289826
 20
-186.0323476866
 10
489.8024023051
 20
-190.2011211406
 10
487.5122373874
 20
-194.3100279359
 10
485.0989088417
 20
-198.3478107684
 10
482.5690284547
 20
-202.3034070445
 10
479.9295293832
 20
-206.1659640883
 10
477.1876503482
 20
-209.9248969357
 10
474.3509066598
 20
-213.5699111451
 10
471.4270691432
 20
-217.0910088796
 10
468.4241562361
 20
-220.4785360549
 10
465.3503971109
 20
-223.7232157957
 10
462.2142158689
 20
-226.8161514767
 10
459.0242091501
 20
-229.7488700666
 10
455.7891211085
 20
-232.5133183233
 10
452.5178190457
 20
-235.1019376976
 10
449.2192683869
 20
-237.5076179422
 10
445.9025106188
 20
-239.7237767684
 10
442.5766372777
 20
-241.7443322766
 10
439.2507639365
 20
-243.563748392
 10
435.9340061684
 20
-245.1770365728
 10
432.6354555096
 20
-246.5797818543
 10
429.3641534469
 20
-247.7681274466
 10
426.1290654052
 20
-248.7388323378
 10
422.9390586864
 20
-249.4892171084
 10
419.8028774444
 20
-250.0172392152
 10
417.7770918049
 20
-250.2422784657
  0
LWPOLYLINE
  5
EE
330
1F
100
AcDbEntity
  8
0
  6
Continuous
 62
     1
370
    25
100
AcDbPolyline
 90
       42
 70
   128
 43
0.0
 10
524.9812848903
 20
-140.496527683
 10
526.0558925501
 20
-142.9425311695
 10
526.9971475812
 20
-145.6141803805
 10
527.7718171935
 20
-148.4407415442
 10
528.377177647
 20
-151.4122880829
 10
528.8111005259
 20
-154.5183824436
 10
529.0720685435
 20
-157.7481107009
 10
529.1591597376
 20
-161.0901316048
 10
529.0720685435
 20
-164.5327058611
 10
528.8111005259
 20
-168.063741378
 10
528.377177647
 20
-171.6708324307
 10
527.7718171935
 20
-175.3413132717
 10
526.9971475812
 20
-179.0622889317
 10
526.0558925501
 20
-182.8206880695
 10
524.9513553595
 20
-186.6033124011
 10
523.6874135195
 20
-190.3968754828
 10
522.2685135226
 20
-194.1880483382
 10
520.6996339653
 20
-197.9635142083
 10
518.9862881822
 20
-201.7100157005
 10
517.1344926359
 20
-205.4143943293
 10
515.1507537461
 20
-209.0636315807
 10
513.0420362796
 20
-212.6449127874
 10
510.8157528134
 20
-216.1456605888
 10
508.4797163195
 20
-219.5535775123
 10
506.0421375308
 20
-222.8566900794
 10
503.5115748918
 20
-226.0433989923
 10
500.8969200703
 20
-229.1025118322
 10
498.207354494
 20
-232.0232803174
 10
495.4523282765
 20
-234.79544593
 10
492.6415154366
 20
-237.4092688084
 10
489.7847915079
 20
-239.8555741341
 10
486.8921894157
 20
-242.1257654352
 10
483.9738701728
 20
-244.2118719229
 10
481.0400845181
 20
-246.1065584686
 10
478.101137027
 20
-247.8031767417
 10
475.1673513723
 20
-249.2957670127
 10
472.2490321293
 20
-250.5790802028
 10
469.3564300372
 20
-251.6486161891
 10
466.4997061084
 20
-252.5006141052
 10
463.6888932686
 20
-253.1320866537
 10
460.9338670511
 20
-253.5408066048
 10
458.7100702489
 20
-253.7092579618
  0
ARC
  5
EF
330
1F
100
AcDbEntity
  8
0
  6
Continuous
 62
     1
370
    25
100
AcDbCircle
 10
519.2397204316
 20
-212.6174798118
 30
0.0
 40
133.7140659797552
100
AcDbArc
 50
138.9134266177
 51
161.0919505491
  0
LWPOLYLINE
  5
F0
330
1F
100
AcDbEntity
  8
0
  6
Continuous
 62
     1
370
    25
100
AcDbPolyline
 90
       48
 70
   128
 43
0.0
 10
521.5247770629
 20
-134.8419555021
 10
522.6893919519
 20
-136.334976632
 10
524.1056867467
 20
-138.4839692911
 10
525.3673078758
 20
-140.8139269583
 10
526.4698167493
 20
-143.316674241
 10
527.4093437596
 20
-145.9834167833
 10
528.1825856475
 20
-148.8047899352
 10
528.7868344779
 20
-151.7708785273
 10
529.2199671033
 20
-154.871264019
 10
529.4804504322
 20
-158.0950640423
 10
529.5673835756
 20
-161.4309460947
 10
529.4804504322
 20
-164.8671990181
 10
529.2199671033
 20
-168.3917466913
 10
528.7868344779
 20
-171.9922164677
 10
528.1825856475
 20
-175.6559559096
 10
527.4093437596
 20
-179.3700951421
 10
526.4698167493
 20
-183.1215924808
 10
525.3673078758
 20
-186.8972694138
 10
524.1056867467
 20
-190.6838638313
 10
522.6893919519
 20
-194.4680756539
 10
521.1233968195
 20
-198.236607894
 10
519.4131962449
 20
-201.976229013
 10
517.5648014225
 20
-205.6738018181
 10
515.5847056009
 20
-209.3163397332
 10
513.4798630103
 20
-212.8910432995
 10
511.2576651542
 20
-216.3853625311
 10
508.9259197363
 20
-219.7870182057
 10
506.4928190503
 20
-223.0840626991
 10
503.9669031013
 20
-226.2649225675
 10
501.3570503864
 20
-229.3184129953
 10
498.672425211
 20
-232.2338168785
 10
495.9224579324
 20
-235.0008901457
 10
493.1168080815
 20
-237.6099195505
 10
490.2653301182
 20
-240.0517302723
 10
487.3780405047
 20
-242.3177535946
 10
484.4650811554
 20
-244.4000236698
 10
481.5366835473
 20
-246.2912347402
 10
478.6031338162
 20
-247.9847369527
 10
475.6747362081
 20
-249.4745817928
 10
472.7617768589
 20
-250.7555429939
 10
469.8744872453
 20
-251.8231133019
 10
467.0230092821
 20
-252.6735489591
 10
464.2173594312
 20
-253.303853921
 10
461.4673921526
 20
-253.7118252908
 10
458.7827669772
 20
-253.8960236584
 10
456.1729142623
 20
-253.8558050359
 10
453.6469983133
 20
-253.5913056457
 10
453.0305031892
 20
-253.4903723955
  0
ENDSEC
  0
SECTION
  2
OBJECTS
  0
DICTIONARY
  5
C
330
0
100
AcDbDictionary
281
     1
  3
ACAD_GROUP
350
D
  3
ACAD_LAYOUT
350
1A
  3
ACAD_MLINESTYLE
350
17
  3
ACAD_PLOTSETTINGS
350
19
  3
ACAD_PLOTSTYLENAME
350
E
  3
ACAD_SCALELIST
350
47
  0
DICTIONARY
  5
D
102
{ACAD_REACTORS
330
C
102
}
330
C
100
AcDbDictionary
281
     1
  0
DICTIONARY
  5
1A
102
{ACAD_REACTORS
330
C
102
}
330
C
100
AcDbDictionary
281
     1
  3
Layout1
350
1E
  3
Layout2
350
26
  3
Model
350
22
  0
DICTIONARY
  5
17
102
{ACAD_REACTORS
330
C
102
}
330
C
100
AcDbDictionary
281
     1
  3
Standard
350
18
  0
DICTIONARY
  5
19
102
{ACAD_REACTORS
330
C
102
}
330
C
100
AcDbDictionary
281
     1
  0
ACDBDICTIONARYWDFLT
  5
E
102
{ACAD_REACTORS
330
C
102
}
330
C
100
AcDbDictionary
281
     1
  3
Normal
350
F
100
AcDbDictionaryWithDefault
340
F
  0
DICTIONARY
  5
47
102
{ACAD_REACTORS
330
C
102
}
330
C
100
AcDbDictionary
281
     1
  3
A0
350
48
  3
A1
350
49
  3
A2
350
4A
  3
A3
350
4B
  3
A4
350
4C
  3
A5
350
4D
  3
A6
350
4E
  3
A7
350
4F
  3
A8
350
50
  3
A9
350
51
  3
B0
350
52
  3
B1
350
53
  3
B2
350
54
  3
B3
350
55
  3
B4
350
56
  3
B5
350
57
  3
B6
350
58
  3
B7
350
59
  3
B8
350
5A
  3
B9
350
5B
  3
C0
350
5C
  3
C1
350
5D
  3
C2
350
5E
  3
C3
350
5F
  3
C4
350
60
  3
C5
350
61
  3
C6
350
62
  3
C7
350
63
  3
C8
350
64
  3
C9
350
65
  3
D0
350
66
  3
D1
350
67
  3
D2
350
68
  0
LAYOUT
  5
1E
102
{ACAD_REACTORS
330
1A
102
}
330
1A
100
AcDbPlotSettings
  1

  2
none_device
  4

  6

 40
0.0
 41
0.0
 42
0.0
 43
0.0
 44
0.0
 45
0.0
 46
0.0
 47
0.0
 48
0.0
 49
0.0
140
0.0
141
0.0
142
1.0
143
1.0
 70
   688
 72
     1
 73
     0
 74
     5
  7

 75
    16
147
1.0
148
0.0
149
0.0
100
AcDbLayout
  1
Layout1
 70
     1
 71
     1
 10
0.0
 20
0.0
 11
420.0
 21
297.0
 12
0.0
 22
0.0
 32
0.0
 14
1.0000000000E+20
 24
1.0000000000E+20
 34
1.0000000000E+20
 15
-1.0000000000E+20
 25
-1.0000000000E+20
 35
-1.0000000000E+20
146
0.0
 13
0.0
 23
0.0
 33
0.0
 16
1.0
 26
0.0
 36
0.0
 17
0.0
 27
1.0
 37
0.0
 76
     0
330
1B
  0
LAYOUT
  5
26
102
{ACAD_REACTORS
330
1A
102
}
330
1A
100
AcDbPlotSettings
  1

  2
none_device
  4

  6

 40
0.0
 41
0.0
 42
0.0
 43
0.0
 44
0.0
 45
0.0
 46
0.0
 47
0.0
 48
0.0
 49
0.0
140
0.0
141
0.0
142
1.0
143
1.0
 70
   688
 72
     1
 73
     0
 74
     5
  7

 75
    16
147
1.0
148
0.0
149
0.0
100
AcDbLayout
  1
Layout2
 70
     1
 71
     2
 10
0.0
 20
0.0
 11
0.0
 21
0.0
 12
0.0
 22
0.0
 32
0.0
 14
0.0
 24
0.0
 34
0.0
 15
0.0
 25
0.0
 35
0.0
146
0.0
 13
0.0
 23
0.0
 33
0.0
 16
1.0
 26
0.0
 36
0.0
 17
0.0
 27
1.0
 37
0.0
 76
     0
330
23
  0
LAYOUT
  5
22
102
{ACAD_REACTORS
330
1A
102
}
330
1A
100
AcDbPlotSettings
  1

  2
none_device
  4
Letter_(8.50_x_11.00_Inches)
  6

 40
6.35
 41
6.35
 42
6.35000508
 43
6.35000508
 44
215.9
 45
279.4
 46
0.0
 47
0.0
 48
0.0
 49
0.0
140
0.0
141
0.0
142
1.0
143
1.0
 70
  1712
 72
     1
 73
     0
 74
     0
  7

 75
     0
147
1.0
148
0.0
149
0.0
100
AcDbLayout
  1
Model
 70
     1
 71
     0
 10
0.0
 20
0.0
 11
279.4
 21
215.9
 12
0.0
 22
0.0
 32
0.0
 14
0.0
 24
0.0
 34
0.0
 15
279.4
 25
215.9
 35
0.0
146
0.0
 13
0.0
 23
0.0
 33
0.0
 16
1.0
 26
0.0
 36
0.0
 17
0.0
 27
1.0
 37
0.0
 76
     0
330
1F
331
29
  0
MLINESTYLE
  5
18
102
{ACAD_REACTORS
330
17
102
}
330
17
100
AcDbMlineStyle
  2
Standard
 70
     0
  3

 62
   256
 51
90.0
 52
90.0
 71
     2
 49
0.5
 62
   256
  6
BYLAYER
 49
-0.5
 62
   256
  6
BYLAYER
  0
ACDBPLACEHOLDER
  5
F
102
{ACAD_REACTORS
330
E
102
}
330
E
  0
SCALE
  5
48
102
{ACAD_REACTORS
330
47
102
}
330
47
100
AcDbScale
 70
     0
300
1:1
140
1.0
141
1.0
290
     1
  0
SCALE
  5
49
102
{ACAD_REACTORS
330
47
102
}
330
47
100
AcDbScale
 70
     0
300
1:2
140
1.0
141
2.0
290
     0
  0
SCALE
  5
4A
102
{ACAD_REACTORS
330
47
102
}
330
47
100
AcDbScale
 70
     0
300
1:4
140
1.0
141
4.0
290
     0
  0
SCALE
  5
4B
102
{ACAD_REACTORS
330
47
102
}
330
47
100
AcDbScale
 70
     0
300
1:5
140
1.0
141
5.0
290
     0
  0
SCALE
  5
4C
102
{ACAD_REACTORS
330
47
102
}
330
47
100
AcDbScale
 70
     0
300
1:8
140
1.0
141
8.0
290
     0
  0
SCALE
  5
4D
102
{ACAD_REACTORS
330
47
102
}
330
47
100
AcDbScale
 70
     0
300
1:10
140
1.0
141
10.0
290
     0
  0
SCALE
  5
4E
102
{ACAD_REACTORS
330
47
102
}
330
47
100
AcDbScale
 70
     0
300
1:16
140
1.0
141
16.0
290
     0
  0
SCALE
  5
4F
102
{ACAD_REACTORS
330
47
102
}
330
47
100
AcDbScale
 70
     0
300
1:20
140
1.0
141
20.0
290
     0
  0
SCALE
  5
50
102
{ACAD_REACTORS
330
47
102
}
330
47
100
AcDbScale
 70
     0
300
1:30
140
1.0
141
30.0
290
     0
  0
SCALE
  5
51
102
{ACAD_REACTORS
330
47
102
}
330
47
100
AcDbScale
 70
     0
300
1:40
140
1.0
141
40.0
290
     0
  0
SCALE
  5
52
102
{ACAD_REACTORS
330
47
102
}
330
47
100
AcDbScale
 70
     0
300
1:50
140
1.0
141
50.0
290
     0
  0
SCALE
  5
53
102
{ACAD_REACTORS
330
47
102
}
330
47
100
AcDbScale
 70
     0
300
1:100
140
1.0
141
100.0
290
     0
  0
SCALE
  5
54
102
{ACAD_REACTORS
330
47
102
}
330
47
100
AcDbScale
 70
     0
300
2:1
140
2.0
141
1.0
290
     0
  0
SCALE
  5
55
102
{ACAD_REACTORS
330
47
102
}
330
47
100
AcDbScale
 70
     0
300
4:1
140
4.0
141
1.0
290
     0
  0
SCALE
  5
56
102
{ACAD_REACTORS
330
47
102
}
330
47
100
AcDbScale
 70
     0
300
8:1
140
8.0
141
1.0
290
     0
  0
SCALE
  5
57
102
{ACAD_REACTORS
330
47
102
}
330
47
100
AcDbScale
 70
     0
300
10:1
140
10.0
141
1.0
290
     0
  0
SCALE
  5
58
102
{ACAD_REACTORS
330
47
102
}
330
47
100
AcDbScale
 70
     0
300
100:1
140
100.0
141
1.0
290
     0
  0
SCALE
  5
59
102
{ACAD_REACTORS
330
47
102
}
330
47
100
AcDbScale
 70
     0
300
1/128" = 1'-0"
140
0.0078125
141
12.0
290
     0
  0
SCALE
  5
5A
102
{ACAD_REACTORS
330
47
102
}
330
47
100
AcDbScale
 70
     0
300
1/64" = 1'-0"
140
0.015625
141
12.0
290
     0
  0
SCALE
  5
5B
102
{ACAD_REACTORS
330
47
102
}
330
47
100
AcDbScale
 70
     0
300
1/32" = 1'-0"
140
0.03125
141
12.0
290
     0
  0
SCALE
  5
5C
102
{ACAD_REACTORS
330
47
102
}
330
47
100
AcDbScale
 70
     0
300
1/16" = 1'-0"
140
0.0625
141
12.0
290
     0
  0
SCALE
  5
5D
102
{ACAD_REACTORS
330
47
102
}
330
47
100
AcDbScale
 70
     0
300
3/32" = 1'-0"
140
0.09375
141
12.0
290
     0
  0
SCALE
  5
5E
102
{ACAD_REACTORS
330
47
102
}
330
47
100
AcDbScale
 70
     0
300
1/8" = 1'-0"
140
0.125
141
12.0
290
     0
  0
SCALE
  5
5F
102
{ACAD_REACTORS
330
47
102
}
330
47
100
AcDbScale
 70
     0
300
3/16" = 1'-0"
140
0.1875
141
12.0
290
     0
  0
SCALE
  5
60
102
{ACAD_REACTORS
330
47
102
}
330
47
100
AcDbScale
 70
     0
300
1/4" = 1'-0"
140
0.25
141
12.0
290
     0
  0
SCALE
  5
61
102
{ACAD_REACTORS
330
47
102
}
330
47
100
AcDbScale
 70
     0
300
3/8" = 1'-0"
140
0.375
141
12.0
290
     0
  0
SCALE
  5
62
102
{ACAD_REACTORS
330
47
102
}
330
47
100
AcDbScale
 70
     0
300
1/2" = 1'-0"
140
0.5
141
12.0
290
     0
  0
SCALE
  5
63
102
{ACAD_REACTORS
330
47
102
}
330
47
100
AcDbScale
 70
     0
300
3/4" = 1'-0"
140
0.75
141
12.0
290
     0
  0
SCALE
  5
64
102
{ACAD_REACTORS
330
47
102
}
330
47
100
AcDbScale
 70
     0
300
1" = 1'-0"
140
1.0
141
12.0
290
     0
  0
SCALE
  5
65
102
{ACAD_REACTORS
330
47
102
}
330
47
100
AcDbScale
 70
     0
300
1-1/2" = 1'-0"
140
1.5
141
12.0
290
     0
  0
SCALE
  5
66
102
{ACAD_REACTORS
330
47
102
}
330
47
100
AcDbScale
 70
     0
300
3" = 1'-0"
140
3.0
141
12.0
290
     0
  0
SCALE
  5
67
102
{ACAD_REACTORS
330
47
102
}
330
47
100
AcDbScale
 70
     0
300
6" = 1'-0"
140
6.0
141
12.0
290
     0
  0
SCALE
  5
68
102
{ACAD_REACTORS
330
47
102
}
330
47
100
AcDbScale
 70
     0
300
1'-0" = 1'-0"
140
12.0
141
12.0
290
     0
  0
ENDSEC
  0
EOF
